Tono: F#
		
Intro:   Pinch harmonic the note

Eb|------------------------|--------------------------------------|
Bb|------------------------|--------------------------------------|
Gb|------------------------|--------------------------------------|
Db|------------------------|--------------------------------------|
Ab|------------------------|--------------------------------------|
Eb|-2-2-2-2-2--2-2-2-2-2---|--------------------------------------|

                     repeat


The feelings I once felt... (listen for the rhythm)

Eb|--------------------------------------------------------------|
Bb|--------------------------------------------------------------|
Gb|--------------------------------------------------------------|
Db|--------------------------------------------------------------|
Ab|-2-2-2-2-2-2-2-2-2-2------------------------------------------|
Eb|-0-0-0-0-0-0-0-0-0-0------------------------------------------|



Gone....

Eb|--------------------------------------------------------------|
Bb|--------------------------------------------------------------|
Gb|--------------------------------------------------------------|
Db|--------------------------------------------------------------|
Ab|--------------------------------------------------------------|
Eb|-2-2-2-2-2--2-2-2-2-2-----------------------------------------|



Ive waited here for you...

Eb|--------------------------------------------------------------|
Bb|--------------------------------------------------------------|
Gb|--------------------------------------------------------------|
Db|--------------------------------------------------------------|
Ab|-2-2-2-2-2-2-2-2-2-2------------------------------------------|
Eb|-0-0-0-0-0-0-0-0-0-0------------------------------------------|



Long....

Eb|--------------------------------------------------------------|
Bb|--------------------------------------------------------------|
Gb|--------------------------------------------------------------|
Db|--------------------------------------------------------------|
Ab|--------------------------------------------------------------|
Eb|-2-2-2-2-2--2-2-2-2-2-----------------------------------------|





Eb|-------5---------------------------------5---------------------|
Bb|----3--5---------------------------------5---------------------|
Gb|----2--2-----4/5\4--4/5\4----------------2---------------------|
Db|----2----------------------2--------2--------------------------|
Ab|-4--0--------2/3\2--2/3\2--0-----4--0---------0-0-0-0-0-0------|
Eb|-2-------------------------------2------------0-0-0-0-0-0------|






                                   bend-hold-release   vibrato 


|----------------------------|---------------------------------|
|----------------------------|------------^--------^-----------|
|---- trill -----------------|-------2-4-4--------4-4p2^^^^^^^^|
|--2h4p2h4p2h4p2-(3x'2)-/14/-|---2-4---------------------------|
|------------------------sl.-|-4-------------------------------|
|----------------------------|---------------------------------|
   w/Wah.....                            w/Wah 

                                                     vibrato   

|--------------------------------------------------------------|
|--------------------------------------------------------------|
|---------------------------------------------16p14-16---------|
|--/19\------------------------------14-16-14------------------|
|--/19\------------12-14-15-14-16-16---------------------------|
|--------12-14-14----------------------------------------------|

    sl.                       sl.
       
                                                     vibrato 

|-----------------------------------------b--------b-----------|
|-----------------------------14----14-17^--p14h17^------------|
|--------------------14-16-16----------------------------------|
|-----------14-16-16-------------------------------------------|
|--14-15-16----------------------------------------------------|
|--------------------------------------------------------------|



repeat 4x

|--14------------|---14----------17^-17--14---------------------|
|-----17-14-17^--|-------17--14---------------------------------|
|----------------|----------------------------------------------|
|----------------|----------------------------------------------|
|----------------|----------------------------------------------|
|----------------|----------------------------------------------|



|--17-14------14------14-17--17-16--17--14--16-14--14------14-16-14------------|
|---------17------17-----------------------------------17-------------17--17^--|
|------------------------------------------------------------------------------|
|------------------------------------------------------------------------------|
|------------------------------------------------------------------------------|
|------------------------------------------------------------------------------|


                                           A.H.

|---------------------------------------------------------------|
|---b-2h5p2--b--2h5p2--b--2h5p2------------^^^------------------|
|-4^--------4^-------4^--------4-4-4-4-4-4p-2-------------------|
|---------------------------------------------------------------|
|---------------------------------------------------------------|
|---------------------------------------------------------------| 





|---------4-5-7---------5-7-9----------7-9-10-----------9-10-12-|
|--3-5-7---------5-7-9---------7-9-10----------9-10-12----------|
|---------------------------------------------------------------|
|---------------------------------------------------------------|
|---------------------------------------------------------------|
|---------------------------------------------------------------|





|-----------------------10-12-14------------10-12p14----------------14---|
|---------------------------------10-12-14------------14------------17^--|
|--9-11-12--------9-11------------------------------------11~~~--0-------|
|-----------9-12---------------------------------------------------------|
|------------------------------------------------------------------------|
|------------------------------------------------------------------------|

Comentarios 1

  • mrtucker mrtucker: Publicado en 07/08/2012 19:01

    Vídeo-aula ai por favor \o/
    Essa é muito da hora!

Composición: Bobby Sharp / Charles Bobbit / Chris Stainton / Tom Douglas / Tommy Duncan / Zakk Wylde
Ese no és el compositor? Avisenos.
Contribución: Vitaum
Exhibir acordes »
publicidad
cerrar