Postcards From Italy

Beirut

 Beirut Compositor: Gulag Orkestar
Tono: F(acordes na forma do tom D)
Cejilla en la 3ª casa		
Regular tuning, capo on 3rd fret. All chords relative to capo.

First half (repeat over and over):


     D
e|:--0h2--2-2-2---:|--0h2--2-2-2---3-2-0-2--|
B|:--3----3-3-3---:|--3----3-3-3---3-3-3-3--|
G|:--2----2-2-2---:|--2----2-2-2---2-2-2-2--|
D|:--0----0-0-0---:|--0----0-0-0---0-0-0-0--|
A|:--x----x-x-x---:|--x----x-x-x---x-x-x-x--|
E|:--x----x-x-x---:|--x----x-x-x---x-x-x-x--|




     F#
e|:--0h2--2-2-2---:|--0h2--2-2-2---3-2-0-2--|
B|:--2----2-2-2---:|--2----2-2-2---2-2-2-2--|
G|:--3----3-3-3---:|--3----3-3-3---3-3-3-3--|
D|:--x----x-x-x---:|--x----x-x-x---x-x-x-x--|
A|:--x----x-x-x---:|--x----x-x-x---x-x-x-x--|
E|:--x----x-x-x---:|--x----x-x-x---x-x-x-x--|


Bridge:


     D
e|:--0h2--2-2-2--2-2-2-2---:|:--5----5-5-5---5-5-5-5--:|
B|:--3----3-3-3--3-3-3-3---:|:--3----3-3-3---3-3-3-3--:|
G|:--2----2-2-2--2-2-2-2---:|:--2----2-2-2---2-2-2-2--:|
D|:--0----0-0-0--0-0-0-0---:|:--0----0-0-0---0-0-0-0--:|
A|:--x----x-x-x--x-x-x-x---:|:--x----x-x-x---x-x-x-x--:|
E|:--x----x-x-x--x-x-x-x---:|:--x----x-x-x---x-x-x-x--:|



Second half (repeat over and over):


     Gadd9              D
e|:--5-5-5--5-5-5-5--|--0-0h2-2-2--2-2-2-2--|
B|:--3-3-3--3-3-3-3--|--3-3---3-3--3-3-3-3--|
G|:--4-4-4--4-4-4-4--|--2-2---2-2--2-2-2-2--|
D|:--5-5-5--5-5-5-5--|--0-0---0-0--0-0-0-0--|
A|:--x-x-x--x-x-x-x--|--x-x---x-x--x-x-x-x--|
E|:--x-x-x--x-x-x-x--|--x-x---x-x--x-x-x-x--|




    Bm                     A
e|--0-0h2-2-2--2-2-2-2--|--0-0--5-5--5-5--5-5-5-5--:|
B|--3-3---3-3--3-3-3-3--|--2-2--2-2--2-2--2-2-2-2--:|
G|--4-4---4-4--4-4-4-4--|--2-2--2-2--2-2--2-2-2-2--:|
D|--4-4---4-4--4-4-4-4--|--2-2--2-2--2-2--2-2-2-2--:|
A|--x-x---x-x--x-x-x-x--|--0-0--0-0--2-2--0-0-0-0--:|
E|--x-x---x-x--x-x-x-x--|--x-x--x-x--x-x--x-x-x-x--:|

Comentarios 0

Composición: Craig / Stephan Groth
Ese no és el compositor? Avisenos.
Contribución: XandeDias
Consigo tocarSin embargo, para tocar esta canción. ¡Sé el primero!
    Aún no puedo reproducir
    Exhibir acordes »
    publicidad
    cerrar