Cotação do Dólar

Banda Coelho

Sin foto de Banda Coelho Compositor: Ronne Masxoel / João Dos Harmônicos / Carlos Monteiro
Tono: C
		
Intro:
   C           C#                Ebm


E|-3------------------------------------------------------|
B|-3------------------------------------------------------|
G|-5----3--0------------------------------3--2------------|
D|-5---3-----2-4-2--1--0----------------------------------|
A|-3------------------------------------------------------|
E|-------------------------------------------------------|


C                    Dm
Moeda acelerou ganhos perto do fechamento
C                     Em
Encontre tudo sobre investimentos
Dm                        Em
Com o Banco Central voltando a fazer um novo leilão
A7       Am          G            A7
Investidores seguem atentos à formação

A5             Cm
Veja a cotação do dólar
G
Pacotes de ajuda melhoraram ânimo do mercado
A5             Cm
Veja a cotação do dólar
E
abre marcando instabilidade

A7       Am          G            A7
Depois da aversão ao risco da véspera.
A7       Am          G            A7
Dólar sobe frente ao euro e se mantém em festa
A7       Am          G            A7
As últimas notícias, análises, blogs, furos.
A7       Am          G            A7
Bolsas internacionais, inflação, poupança, taxa de juros.

Solo:


E|-0--0-0--------------------------3--2--2---------------|
B|------------5----4---3--3--3--3-----------------2-2-2--|
G|-------------------------------------------------------|
D|-------------------------------------------------------|
A|-------------------------------------------------------|
E|-------------------------------------------------------|


A5             Cm
Veja a cotação do dólar
G
Pacotes de ajuda melhoraram ânimo do mercado
A5             Cm
Veja a cotação do dólar
E                          C
abre marcando instabilidade
28 exhibiciónes

Comentarios 0

Composición: Sabe quien és el compositor? Envíenos. Contribución: d.barro
Consigo tocarSin embargo, para tocar esta canción. ¡Sé el primero!
    Aún no puedo reproducir
    Exhibir acordes »
    publicidad
    cerrar