Sign Of The Cross

Avantasia

 Avantasia
Tono: F
		
b - bend
v - vibrato
ha - harmônico artificial

Intro:


E|---------------------------------------------|
B|---------------------------------------------|
G|--8-8-------8---8-6-8\---8-6-8---8-8-4-4-8-6-|
D|--8-8-------8---8-6-8\---8-6-8---8-8-4-4-8-6-|
A|--6-6-------6---6-4-6\---6-4-6---6-6-2-2-6-4-|
E|---------------------------------------------|



E|---------------------------------------------|
B|---------------------------------------------|
G|--8---8-6-8\--8-6-8---8-8-4-4-8-6-8--8-6-8\--|
D|--8---8-6-8\--8-6-8---8-8-4-4-8-6-8--8-6-8\--|
A|--6---6-4-6\--6-4-6---6-6-2-2-6-4-6--6-4-6\--|
E|---------------------------------------------|


Riff1:


E|---------------------------------------------|
B|---------------------------------------7-----|
G|--4-4-4-6-6-6-8----8-6-8\----4-4-6-6-6-6-----|
D|--4-4-4-6-6-6-8----8-6-8\----4-4-6-6-6-4-----|
A|--2-2-2-4-4-4-6----6-4-6\----2-2-4-4-4-------|
E|---------------------------------------------|


Riff2:


E|---------------------------------------------|
B|---------------------------------------------|
G|--6-8-x-8--8--6--4--4-4-6-6-8--6-8-x-8--8--6-|
D|--6-8-x-8--8--6--4--4-4-6-6-8--6-8-x-8--8--6-|
A|--4-6-x----6--4--2--2-2-4-4-6--4-6-x----6--4-|
E|---------------------------------------------|



E|---------------------------------------------|
B|---------------6-----------------------------|
G|----4--4-4-6-6-6-----------------------------|
D|----4--4-4-6-6-4-----------------------------|
A|----2--2-2-4-4-------------------------------|
E|---------------------------------------------|


Riff3:


E|---------------------------------------------|
B|---------------------------------------------|
G|--3-3-3-3-3-3-3-3-3--------------------------|
D|--3-3-3-3-3-3-3-3-3--------------------------|
A|--1-1-1-1-1-1-1-1-1--------------------------|
E|---------------------------------------------|


Riff4:


E|---------------------------------------------|
B|---------------------------------------------|
G|--8----------6-6-----------------------------|
D|--8--3-3-4-4-6-6-6-----------4-4-4-3---------|
A|--6--3-3-4-4-4-4-6-----------4-4-4-3---------|
E|-----0-1-2-2-----4--4-4h6p4--2-2-2-1---------|



E|---------------------------------------------|
B|---------------------------------------------|
G|--8----------6-6-----------------------------|
D|--8--3-3-4-4-6-6-6----------4-4-4-3--4-x-x-4-|
A|--6--3-3-4-4-4-4-6----------4-4-4-3--4-x-x-4-|
E|-----0-1-2-2-----4--4-4h6p4-2-2-2-1--2-x-x-2-|


Riff5:


E|---------------------------------------------|
B|---------------------------------------------|
G|--8---8-6-8\--8-6-8---8-8-4-4-8-6-8--8-6-8\--|
D|--8---8-6-8\--8-6-8---8-8-4-4-8-6-8--8-6-8\--|
A|--6---6-4-6\--6-4-6---6-6-2-2-6-4-6--6-4-6\--|
E|---------------------------------------------|



E|---------------------------------------------|
B|---------------------------------------------|
G|--8-8-4-4-8-6-8---8-6-8\---------------------|
D|--8-8-4-4-8-6-8---8-6-8\---------------------|
A|--6-6-2-2-6-4-6---6-4-6\---------------------|
E|---------------------------------------------|


Riff6:


E|---------------------------------------------|
B|---------------------------------------------|
G|------4-----6-----8-6-4-6-4-----6-----1------|
D|--6-6---6-6---6-6-----------6-6---2-2---2-2--|
A|---------------------------------------------|
E|---------------------------------------------|



E|---------------------------------------------|
B|---------------------------------------------|
G|--3-----4---3---1-----3-----3-----4-----6-4--|
D|----2-2---2---2---2-2---4-4---4-4---4-4------|
A|---------------------------------------------|
E|---------------------------------------------|



E|---------------------------------------------|
B|---------------------------------------------|
G|--3-4-3-----3-----8-----9-----11-9-8---------|
D|--------4-4---9-9---9-9---9-9--------11-9-8--|
A|---------------------------------------------|
E|---------------------------------------------|



E|---------------------------------------------|
B|---------------------------------------------|
G|-------------------------------------------8-|
D|-----------6-----8-----9---8---6---8-9-9-9---|
A|--11-9-7-7---7-7---7-7---7---7---7-----------|
E|---------------------------------------------|



E|---------------------------------------------|
B|---------------------------------------------|
G|------9-----11-9-8-9-8-----------------------|
D|--9-9---9-9------------9-9-11-----8-----9----|
A|------------------------------9-9---9-9---9--|
E|---------------------------------------------|



E|---------------------------------------------|
B|---------------------------------------------|
G|-------------------------8-----9-------------|
D|----11-9-8-9-8-----9-9-9---9-9---9-9---------|
A|--9------------9-9---------------------------|
E|---------------------------------------------|



E|---------------------------------------------|
B|---------------------------------------------|
G|--11-9-8-------------------------------------|
D|---------11-9-8------------------------------|
A|----------------11-9-------------------------|
E|---------------------------------------------|


Solo:

*Sweep Picking


E|--12-14-16-14-16-17-16-14--------------------|
B|--------------------------17-16-14-12-14-16--|
G|---------------------------------------------|
D|---------------------------------------------|
A|---------------------------------------------|
E|---------------------------------------------|



E|--12-14-16-14-16-17-16-14--------------------|
B|--------------------------17-16-14-12-14-16--|
G|---------------------------------------------|
D|---------------------------------------------|
A|---------------------------------------------|
E|---------------------------------------------|



E|--13-12-15-13\12-13-12-15-13\12-13-17-13-12--|
B|---------------------------------------------|
G|---------------------------------------------|
D|---------------------------------------------|
A|---------------------------------------------|
E|---------------------------------------------|



E|--15-12-10-13-10-12-15-12-18-17-15-----------|
B|-----------------------------------18-17-15--|
G|---------------------------------------------|
D|---------------------------------------------|
A|---------------------------------------------|
E|---------------------------------------------|



E|---------------------------------------------|
B|-----------------------------------15-17-18--|
G|--17-15-14----------------14-15-17-----------|
D|-----------17-15-14-15-17--------------------|
A|---------------------------------------------|
E|---------------------------------------------|



E|--15-17-18-17-15-----------------------------|
B|-----------------18-17-15--------------------|
G|--------------------------17-15-14-----------|
D|-----------------------------------17-15-14--|
A|---------------------------------------------|
E|---------------------------------------------|



E|--------------------------15-17-18-20b-20-18-|
B|-----------------15-17-18--------------------|
G|--------14-15-17-----------------------------|
D|--15-17--------------------------------------|
A|---------------------------------------------|
E|---------------------------------------------|




E|--20v-20-18-20b-20-18-20v-15-13-15b-15-13----|
B|---------------------------------------------|
G|---------------------------------------------|
D|---------------------------------------------|
A|---------------------------------------------|
E|---------------------------------------------|



E|--15v-15-13-15b-15-13-12v--15--15------------|
B|---------------------------14b-15-15-14-12---|
G|---------------------------------------------|
D|---------------------------------------------|
A|---------------------------------------------|
E|---------------------------------------------|



E|---------------------------------------------|
B|--------------15--15-------------------------|
G|--14-12-------14b-15-15-14-12-14-12----------|
D|--------14-12-----------------------14-12----|
A|---------------------------------------------|
E|---------------------------------------------|


Segure o Bend e de o armônico p/ soltá-lo

E|---------------------------------------------|
B|--2-5-4-7-5-9-7-10-9-12-10-13-12-15-13-10----|
G|---------------------------------------------|
D|---------------------------------------------|
A|---------------------------------------------|
E|---------------------------------------------|



E|---------------------------------------------|
B|--12b-12-12-12ha-12-9-10-9-------------------|
G|---------------------------11-9-8-8-9--------|
D|--------------------------------------11-----|
A|---------------------------------------------|
E|---------------------------------------------|



E|---------------------------------------------|
B|---------------------------------------------|
G|--8---8-6-8\---8-6-8---8-8-4-4-8-6-8---------|
D|--8---8-6-8\---8-6-8---8-8-4-4-8-6-8---------|
A|--6---6-4-6\---6-4-6---6-6-2-2-6-4-6---------|
E|---------------------------------------------|




From a world of reign they come
(Intro)

In a world of mammon we have found it all!
Fighting for pride and for gold.
But the key to the reign, to the ultimate control:
wisdom of the old.
(Riff1)

We have been elect to drain the wine
of Gnosis to hide it and pray.
Got to save our children from the beast.
We are on the way.
(Riff2)

Remaining in darkness
the land of salvation will drown.
And when we'll have vanished
slavery will take your freedom down.
(Riff3)

Seven eyes to be blind forever in time:
Sign of the cross
Hell arise! Castigation under the sign,
sign of the cross - make us drown in altar wine
(Riff4)
(Riff5)

In the heart of justice called Horeb long ago
Moses got carvings in stone.
Imposed to judge those who do not fear
the only, the holy the Lord.
(Riff1)

The blood of anger and pain:
Ink of the Old Testament.
I know they'll end their crusade
drown in the blood of the lamb.
(Riff2)

Remaining in darkness
the land of salvation will drown
And when we'll have vanished
slavery will take your freedom down
(Riff3)

Seven eyes to be blind forever in time:
Sign of the cross
Hell arise! Castigation under the sign,
sign of the cross - make us drown in altar wine
(Riff4)

You have been the chosen one,
so  welcome to this place.
Vandroiy's told us you would come
to help us win the race.
Bring back the seal from the men
who don't know what they do.
Seemed to be a fool without an own way of life.
But you've been a sleeping mind
and you woke up in time.
You've got the power to save us and finally you.
(Riff6)

Solo


A dream is forever.
The land of salvation can't drown.
Those enchanting colors -
who could have the might to tear it down?
(Riff3)

Seven eyes to be blind forever in time: Sign of the cross
Hell arise! Castigation under the sign, sign of the cross
Follow the sign
(Riff4)

Comentarios 0

Composición: Tobias Sammet
Ese no és el compositor? Avisenos.
Contribución: Ricardo
Consigo tocarSin embargo, para tocar esta canción. ¡Sé el primero!
    Aún no puedo reproducir
    Exhibir acordes »
    publicidad
    cerrar