Hacelo Por Mi

Attaque 77

 Attaque 77
Tono: E
		

E|--------------------------------|
B|--------------------------------|
G|--------------------------------|
D|--2--2---2--2--2----2--2--2-----|
A|--2--2---2--2--2----2--2--2-----|
E|--0--0---0--0--0----0--0--0-----|



E|--------------------------------------------------|
B|--------------------------------------------------|
G|--------------------------------------------------|
D|------------6------------------6------------------|
A|-------2-4--4---7--7--6--6--4--4--7--7--6--6--4---|
E|-0-2-4--------------------------------------------|



E|-----|--------------------------------------------------|
B|-0---|--------------------------------------------------|
G|-1---|--------------------------------------------------|


D|-2---|------------6---------------6---------------------|  F#  B  A  B
A|-2---|-------2-4--4---7--7--6--6--4--4--7--7--6--6--4---|
E|-0---|-0-2-4--------------------------------------------|


E
Yo no sé lo que sentí
      C#m
esa tarde que te vi
     A
yo pensaba en otras cosas,
        B
fuiste mucho para mí.

E
Yo creía en tus palabras,
      C#m
tu mirada me engañó
     A
Ahora sé que no sos mía,
        B
la culpa la tuve yo.

     A
Yo no quise lastimarte,
      C#m
jamás tuve esa intención
     A
Fuimos presos de un impulso,
    B          F#m   B
yo solo buscaba amor.

intro:

E
Y cuando te veía en la calle,
      C#m
no podía evitar
     A
que el silencio se adueñara,
        B
me quedaba sin hablar.

E
Ahora sé que no sos mía,
      C#m
la culpa la tuve yo.
     A
Si querés podes marcharte,
        B
solo te pido un favor.

     A
Si aun te queda algo de amor
      C#m
dentro de tu corazón
     A
no me mires a los ojos
    B          F#m   B
que me muero, yo me muero de dolor
Hacelo por mi.

intro:
y despues este arreglo

B|------------------------10----10----10/12~-|
G|----------------------9---9-9---9-9--------|
D|--1-1--1---3-4-3--3/9----------------------|

E
Todo eso que sentía
      C#m
esa tarde que te vi
     A
ahora no tiene sentido,
        B
fue un mal sueño para mí.

E
Y al pensar en tu mirada,
      C#m
ya no puedo sonreír
     A
si querés podes marcharte,
        B
solo te quiero decir.

     A
Si aun te queda algo de amor
      C#m
dentro de tu corazón
     A
no me mires a los ojos
    B                 F#m   B
que me muero, yo me muero de dolor.
Hacelo por mí.
intro:
pero solo una ves


E|--------------------------------------------------|
B|-----9--7--9----9--7---------5--4--5----5--4------|
G|-9-9----------9------9---6-6----------6-------6---|
D|--------------------------------------------------| x2
A|--------------------------------------------------|
E|--------------------------------------------------|

Hacelo por mi                     Hacelo por mi

 F#5              B5
 oh, no, no, no, no, no, no,

  A5                   B5
 yeah, e, e, e, e.    yeah,e,e,e,e

E5          A5
Hacelo por mi.

Comentarios 1

  • raftorres raftorres: Publicado en 04/09/2012 14:24

    Aguante Attake!!!!!!!!!!!!!

Composición: Gilberto Parra / James McCarty / Leca Machado / Marcelino
Ese no és el compositor? Avisenos.
Contribución: Quintana
Exhibir acordes »
publicidad
cerrar