A Candlelit Dinner With Inamorta

Asking Alexandria

 Asking Alexandria
Tono: F
		

E|-------------------------------------------------------|
B|-------------------------------------------------------|
G|-------------------------------------------------------|
D|------------------------------x8-----------------------|
A|-0000-0000-00000000-00-00-00---------------------------|
D|-0000-0000-00000000-00-00-00---------------------------|

   **** **** ******** ** ** **


E|-------------------------------------------------------|
B|--------------------------6-9--------5-8-5-------------|
G|------------------------7------7/6-6-------------------|
D|-----------0-0~----------------------------------------|
A|0000000000-0-0~-0000000--------------------------------|
D|0000000000-0-0~-0000000--------------------------------|

  **********      *******
                                                               x2

E|-------------------------------------------------------|
B|-------------------------------------------------------|
G|------------------------10----9----12----10------------|
D|-----------0-0~----------x-x3-x-x3--x-x3--x-x3---0~----|
A|0000000000-0-0~-0000000--8----7----10-----8------0~----|
D|0000000000-0-0~-0000000--------------------------0~----|

  **********      *******


E|-------------------------------------------------------|
B|-------------------------------------------------------|
G|-------------------------------------------------------|
D|----------------------------------88-7-5-0---x2--------|
A|00-00-00-00--00-00000-00-00-00-00-88-7-5-0-------------|
D|00-00-00-00--00-00000-00-00-00-00-88-7-5-0-------------|

  ** ** ** **  ** ***** ** ** ** **


E|-------------------------------------------------------|
B|-------------------------------------------------------|
G|-------------------------------------------------------|
D|-------------------------------------------------------|
A|00-00-00-00--00-00000-00-00-00-00----------------------|
D|11-11-11-11--11-11111-11-11-11-11----------------------|

  ** ** ** **  ** ***** ** ** ** **


E|-------------------------------------------------------|
B|-------------------------------------------------------|
G|-------------------------------------------------------|
D|-------------------------------------------------------|
A|000-000--000-000--000--000-000----000------------------|
D|000-000--000-000--000--000-000----000------------------|

  *** ***  *** ***  ***  *** ***    ***


E|-------------------------------------------------------|
B|-------------------------------------------------------|
G|-------------------------------------------------------|
D|-8-----10-----12------10--------x2---------------------|
A|-8-x16-10-x16-12-x16--10-x16---------------------------|
D|-8-----10-----12------10-------------------------------|


(techno part 
254 exhibiciónes

Comentarios 0

Exhibir acordes »
publicidad
cerrar