El Fantasma

Árbol

Sin foto de Árbol Compositor: Arbol
Tono: G
		
( G D/F# Em C )
Salgo volando por la ventana, y tantos días quedan atrás.
Ya no me duelen todas las cosas que ayer me podían molestar.
Son cajones que se cierran para que nadie los vea.Son palabras que no pude decir.
Pero ya no me importa, porque nada me toca, y no hay nada vivo dentro de mi.
Floto en el aire desde esta tarde, cuando mi cabeza
explotó.
Ahora el piso es de nubes y me asomo cada tanto a espiarte desde donde estoy.
Y veo, y vuelo.
Y veo, y vuelo.
El barrio se ilumina y la noche se hace día. Brilla como un árbol de navidad.
Y estoy alto muy alto, y las luces de los autos que se frenan cada tanto, y vuelven a arrancar.
Y veo, a la gente corriendo como una coreografía sin fin. Y vuelo como en una avioneta, el olor a fugazeta que cocina mamá.
Y me acuerdo de aquél día en que decías: "Si pudieras ser un pájaro ¿Qué harías...?"

                                                                                           -- 
e|-10-7-8-10--8-7-8-5-7-8--7-5-7--3-5-7-3-5-7-3-5-7-2-5-7--5-7-8--7-8-10------------------|  |
b|----------------------------------------------------------------------------------------|  |
g|----------------------------------------------------------------------------------------|  |
d|----------------------------------------------------------------------------------------|  |
a|----------------------------------------------------------------------------------------|  |
e|----------------------------------------------------------------------------------------|  |
                                                                                             |-RIFF1
CONTINUAÇÃO                                                                                  |
e|-8-10-11-10-8-7-8-7-7-------------------------------------------------------------------|  |
b|----------------------------------------------------------------------------------------|  |
g|----------------------------------------------------------------------------------------|  |
d|----------------------------------------------------------------------------------------|  |
a|----------------------------------------------------------------------------------------|  |
e|----------------------------------------------------------------------------------------|  |
                                                                                           --

( G D/F# Em C )
Ahora que floto y no siento lo que toco y la gente no me ve pasar.
Voy a aprovechar para ir a buscarte, y contarte como es todo por acá.
Algunas mañanas pasa la abuela Yolanda y nos vamos juntos a pasear.
Y te manda un saludo el marido de pocha. Que me juega al ajedrez y no le puedo ganar.
Y dale para adelante con el pibe de a la vuelta, que a la tarde te pasó a visitar.
Yo te sigo esperando, porque nada me apura y algún día todos vienen para aca.
Y veo (y veo), y vuelo (y vuelo).
Y veo (y veo), y vuelo (y vuelo).
Y veo (y veo), y vuelo (y vuelo).
Y lloro (y lloro) un poco (un poco).

RIFF1

( G D/F# Em C )
Y veo (y veo), y vuelo (y vuelo).
Y veo (y veo), y vuelo (y vuelo).
Y veo (y veo), y vuelo (y vuelo).
Y lloro (y lloro) un poco (un poco).


e|----------------------------------------------------------------------------------------|
b|------------8-6------8-6---8-6------8-6----4-3-4-3--------------------------------------|
g|----------------------------------------------------------------------------------------| 
d|-888888---------8-------8-------8-------------------------------------------------------|
a|----------------------------------------------------------------------------------------|
e|----------------------------------------------------------------------------------------|


LOGO DEPOIS:


e|----------------------------------------------------------------------------------------|
b|---6---6-----6---6------4---4-----4---4-------------------------------------------------|
g|-7---7---7--5---5---5--3---3--3--2---2---2----------------------------------------------| 
d|----------------------------------------------------------------------------------------|
a|----------------------------------------------------------------------------------------|
e|----------------------------------------------------------------------------------------|


FIM
1.109 exhibiciónes

Comentarios 0

Composición: Árbol
Ese no és el compositor? Avisenos.
Contribución: Negro Correcciónes: Markcent »
Consigo tocarSin embargo, para tocar esta canción. ¡Sé el primero!
    Aún no puedo reproducir
    Exhibir acordes »
    publicidad
    cerrar