Nada Pode Quebrar

André Valadão

 André Valadão Compositor: Andre Valadao
Tono: C
		
Intro 8x: Em7  Am7  G

Riff Intro guitarra 1 (Solo)


E|-------------------------------------|
B|-------------------------------------|
G|---7h9----7h9----7h9----7h9----7--7--|  8x
D|-------------------------------------|
A|-------------------------------------|
E|-------------------------------------|


Power Acorde guitarra 2 (Base)

        Em7           F           Am7        G
E|------------|--------------|---------|----------|
B|------------|--------------|---------|----------|
G|---9--9--9--|--10--10--10--|---------|----------|
D|---9--9--9--|--10--10--10--|--7--7---|--5~------|
A|---7--7--7--|--8---8---8---|--7--7---|--5~------|
E|------------|--------------|--5--5---|--3~------|


Riff guitarra 1 (Solo)


E|------------------------------------------------|------------------------------------------| Repete nas
B|------------------------------------------------|------------------------------------------| partes inicial
G|--17-17-17-17-17-17-17-17-17-17-17-16-16--------|--17-17-17-17-17-17-17-17-21-21-19-19-19--| finais e no
D|-----------------------------------------17-17--|------------------------------------------| refrão, no
A|------------------------------------------------|------------------------------------------| meio da musica
E|------------------------------------------------|------------------------------------------| não.


Em7   F          Am7  G  Em7   F                  Am7   G
O autor da vida             escreveu a minha historia
  Em7   F                        Am7  G Em7   F             Am7  G
Vou dando passos pro futuro      nessa estrada de glória
Em7   F               Am7  G   Em7   F               Am7  G
Eu não olho pra tras           prossigo para o alvo
Em7   F               Am7  G   Em7   F          Am7  G
Firmado na promessa        dessa aliança eterna

Ponte: Em7  Am7  G (2x)

Em7   F          Am7  G  Em7   F                  Am7   G
O autor da vida             escreveu a minha historia
  Em7   F                        Am7  G Em7   F             Am7  G
Vou dando passos pro futuro      nessa estrada de glória
Em7   F               Am7  G   Em7   F               Am7  G
Eu não olho pra tras           prossigo para o alvo
Em7   F               Am7  G   Em7   F          Am7  G
Firmado na promessa        dessa aliança eterna

F9                          Am7  G                                     Am7         F9
Meu coração bate mais forte por essa aliança de vida ou morte
                            Am7   Gsus  Am7
Com alegria escolho viver
F9                          Am7  G                                     Am7         F9
Meu coração bate mais forte por essa aliança de vida ou morte
                            Am7   Gsus
Com alegria escolho viver

             Em7       F        Am7    G      Em7   F   Am7  G
Nada pode quebrar nossa aliança de amor
             Em7       F        Am7    G      Em7   F  Am7   G
Nada pode quebrar nossa aliança de amor  (2x)

Reintro: Em7  Am7  G (4x)

Em7   F          Am7  G  Em7   F                  Am7   G
O autor da vida             escreveu a minha historia
  Em7   F                        Am7  G Em7   F             Am7  G
Vou dando passos pro futuro      nessa estrada de glória
Em7   F               Am7  G   Em7   F               Am7  G
Eu não olho pra tras           prossigo para o alvo
Em7   F               Am7  G   Em7   F          Am7  G
Firmado na promessa        dessa aliança eterna

Power Acorde Meio (guitarra 2)

      F9     Am7     G
E|--------|------|-------|  C.T. - Contra-Tempo na nota Am7.
B|--------|------|-------|
G|--------|------|-------|
D|---3~---|--7---|---5~--|
A|---3~---|--7---|---5~--|
E|---1~---|--5---|---3~--|

            C.T
F9                          Am7  G                                     Am7         F9
Meu coração bate mais forte por essa aliança de vida ou morte
                            Am7   Gsus  Am7
Com alegria escolho viver
F9                          Am7  G                                     Am7         F9
Meu coração bate mais forte por essa aliança de vida ou morte
                            Am7   Gsus
Com alegria escolho viver

             Em7       F        Am7    G      Em7   F   Am7  G
Nada pode quebrar nossa aliança de amor
             Em7       F        Am7    G      Em7   F  Am7   G
Nada pode quebrar nossa aliança de amor  2x
(voz  drums)
F9                          Am7  G                                     Am7         F9
Meu coração bate mais forte por essa aliança de vida ou morte
                            Am7   Gsus  Am7
Com alegria escolho viver
F9                          Am7  G                                     Am7         F9
Meu coração bate mais forte por essa aliança de vida ou morte
                            Am7   Gsus
Com alegria escolho viver

             Em7       F        Am7    G      Em7   F   Am7  G
Nada pode quebrar nossa aliança de amor
             Em7       F        Am7    G      Em7   F  Am7   G
Nada pode quebrar nossa aliança de amor  (2x)

Solo intro no fim... (7x)

Fim:  Em7  Am7  G (7x)
      Em7
121 exhibiciónes

Comentarios 0

Composición: André Valadão
Ese no és el compositor? Avisenos.
Contribución: motifxs8 Correcciónes: duckpotato »
Exhibir acordes »
publicidad
cerrar