Pensando Em Você

André e Felipe

 André e Felipe
Tono: C
		
Intro: C G Am F (2x) 


E|--------------------3-3--------------------------------
B|--5-5-3-5----5-5-5------6-6-5-5-5-5-3------------------
G|--------------------------------------5---5-4-2--------
D|-------------------------------------------------------
A|-------------------------------------------------------
E|-------------------------------------------------------



E|--------------------3-3--------------------------------
B|--5-5-3-5----5-5-5------6-6-5-5-5-5-3------------------
G|--------------------------------------5---5-4----------
D|----------------------------------------------5--------
A|-------------------------------------------------------
E|-------------------------------------------------------


 C              G               Am
 Madrugada acordado pensando em você
               Em                F
 passo o dia inteiro querendo te vê
                 C                      Am
 desde o dia em que eu te encontrei foi demais
                 G
 lembranças que não são normais

           Am
 Quando te vi meu coração disparou
               F
 fui falar com você minha boca secou
         C                   G                  F
 foram momentos marcados no meu coração, que o tempo não vão apagar
         C                   G                   Am                F
 foram perguntas que o meu sentimento me fez que essa história ia continuar

        C                         G                Am
 Vou te ligar pra dizer que nosso encontro foi especial
                    Em                     F
 foi um dia inesquecível não tive outro igual
                   Am                       Dm              G
 essas coisas acontecem quando a gente encontra um grande amor
         C                     G                    Am
 deus preparou aquele dia tão bonito pra eu te encontrar
                      Em                   F
 depois de tudo que ocorreu eu tenho que falar
                     Am                      Dm
 você é tudo aquilo que eu sonhei pra minha vida
           G                         C   G    
 pro meu coração, você é a minha menina
110 exhibiciónes

Comentarios 0

Exhibir acordes »
publicidad
cerrar