Piquete do Caveira

Almôndegas

Sin foto de Almôndegas
Tono: D
		
(riff 1)

E|--9-8-9-8-6666------------
B|--------------------------
G|--------------------------  4x
D|--8-7-8-7-5555------------
A|--------------------------
E|--------------------------


(riff 2)

E|--------------------------
B|-5-7-8-7-5555-------------
G|--------------------------  2x
D|--------------------------
A|-5-7-8-7-5555-------------
E|--------------------------


(riff 3)

E|--------------------------
B|-5-7-8-7-8-7-88-----------
G|--------------------------   2x
D|--------------------------
A|-5-7-8-7-8-7-88-----------
E|--------------------------


(riff 1)
(riff 2)
(riff 3)
(riff 1)
(riff 2)
(riff 3)

Em        A7        D        B
Lanças erguidas e espadas no ar
É o piquete do caveira que chegou pra espantar
Pra espalhar os inimigos pra mandar e desmandar
É ponta de faca é relho na mão
A balhada desparada vai deixando pelo chão
A marca do piquete do caveira valentão

Em         A7          Em           A7
   Cavalo negro a escuridão ê ê ê ê ê ê ê ê êo
Em         A7          Em           A7
   O lenço preto assombração ê ê ê ê ê ê ê ê êo
Em         A7             Em   A7   Em   B7
   Botando gente pra valer êee êeee êeee

B7             Em             B7            Em
Vem chegando, vem chegando, vem chegando caveira
B7             Em             B7            Em
Vem chegando, vem chegando, vem chegando

Cavalo negro a escuridão ê ê ê ê êo
O lenço preto assombração ê ê ê ê êo
Botando gente pra correr ê ê ê ê....

(repete tudo)

Cavalo negro a escuridão ê ê ê ê êo
O lenço preto assombração ê ê ê ê êo
Botando medo pra valer ê ê ê ê.... (3x)
25 exhibiciónes

Comentarios 0

Composición: Sabe quien és el compositor? Envíenos. Contribución: Chico Fraga Correcciónes: palacambara »
Consigo tocarSin embargo, para tocar esta canción. ¡Sé el primero!
    Aún no puedo reproducir
    Exhibir acordes »
    publicidad
    cerrar