Casa do Pai

Aline Barros

 Aline Barros
Tono: G#
		
Intro 4x: G#  C#m6/G#

Ab         Eb/G                 Fm            Fm/Eb       Db
Me conheces   sabes tudo que eu preciso antes mesmo de falar
Ab       Eb/G                  Fm           Fm/Eb      Db
Me amas      teu amor é bem maior do que eu possa imaginar
          Eb                    Db
Não quero ser só apenas o teu servo
          Eb                      Db
Quero atrair teu olhar de amor Senhor
           Eb                      Db
Eu venho a ti como um filho que te ama
            Eb
Tudo que eu quero é estar perto de ti

Fm         Fm/Eb    Db         Eb
  Nos teus braços eu quero descansar
Fm     Fm/Eb  Db         Eb        Fm
  Correndo irei pra te abraçar meu Pai

             Fm/Eb         Db
Tu és a minha herança meu Pai
            Ab/C       Bbm
Razão da minha vida meu Pai
                Bbm/Ab      Eb  
Tudo que eu preciso está em Ti

Fm                Fm/Eb      Db
  Eu quero estar na casa do Pai
            Ab/C      Bbm
Comer em tua mesa meu Pai
            Bbm/Ab     Eb
Tudo que eu sou é para Ti
            Ab
Vivo só pra Ti

Solo 

E|-------------------------------------------------------------------------------------------------------------|
A|------------------------------------------------------------------------------- -15--------------------------|
D|----------------------------------------------------------------------13---13-15-----------------------------|
G|--15b17----------------------------------15-13-15-15/17-13-15-13\12------------------------------------------|
B|---------13—16b18--16b18--16--13--16—13----------------------------------------------------------------------|
E|---------13--------------------------------------------------------------------------------------------------|



E|--------------------------------------------------------------------------------------------------------------|
A|--------------------------------------------------------------------------------------------------------------|
D|--------------------------------------------------------------------------------------------------------------|
G|--13--15--15b17--13--15-13--15b17-----------------------------------------------------------------------------|
B|-----------------------------------16-13----------------------------------------------------------------------|
E|--------------------------------------------------------------------------------------------------------------|



E|--------------------------------------------------------------------------------------------------------------|
A|----------------------------------------------------------15----13/15—11—11/13--15-8--------------------------|
D|--------------------------------------15—13—15-15-13---13-----------------------------------------------------|
G|---------------15---15-13-15-15----13-------------------------------------------------------------------------|
B|-16-16-13---13------------------------------------------------------------------------------------------------|
E|--------------------------------------------------------------------------------------------------------------|

Comentarios 16

  • Lucas Lucas: Publicado en 13/12/2014 - 17:58

    Cara,Dificil Em? é Melhor no tom G (SOL) mais Fácil!!

  • milla milla: Publicado en 09/12/2014 - 20:35

    linda consegui tocar no tom F

  • allison.desouza allison.desouza: Publicado en 27/10/2014 21:25

    youtu.be/D_oJFSQ9q_s

  • allison.desouza allison.desouza: Publicado en 22/10/2014 14:18

    Aline Barros - Casa Do Pai ( Marataízes-ES 2014 )

  • Edilene Edilene: Publicado en 20/05/2014 10:24

    Mostra o riff do solo dessa música... please

  • Anderson Anderson: Publicado en 14/05/2014 17:10

    música linda demais!!!! No tom de G é fácil, mas queria msm no de G#.... hard demais!!rs Mas gostei!!!u.u

    • joseph_r joseph_r: Publicado en 02/06/2014 20:46

      Poem um capo na primeira casa que resolve teu problema =)

    • Anderson Anderson: Publicado en 08/07/2014 20:24

      vlw!!!

  • Patrick Patrick: Publicado en 30/04/2014 13:25

    Musica muito Linda !!

  • geanderson.lins geanderson.lins: Publicado en 13/04/2014 12:59

    no teclado se usa no modo strings ou piano?

    • canjica™ canjica™: Publicado en 19/08/2014 18:48

      se tiver bons sons de cordas no seu teclado usa os 2..... piano no começo e a partir do segundo refrão chama bom no string!!!

Exhibiendo 11 de 16 comentarios Mostrar más ver todo »
Composición: Pr. Lucas e Josué Godoi
Ese no és el compositor? Avisenos.
Contribución: Avimento Bíblico Correcciónes: mikael.cesar.7 , mikael.cesar.7 e mais 15 »
Exhibir acordes »
publicidad
cerrar