Casa do Pai

Aline Barros

 Aline Barros
Tono: G#
		
Intro 4x: G#  C#m6/G#

Riff do violão

E|------------------||
B|------------------||
G|----1-1h3-1-------||
D|-1h3-------1h3-1--||
A|------------------||
E|------------------||



G#         Eb/G                 Fm            Fm/Eb       C#   (Riff violão)
Me conheces   sabes tudo que eu preciso antes mesmo de falar
G#       Eb/G                  Fm           Fm/Eb      C#
Me amas      teu amor é bem maior do que eu possa imaginar
          Eb                    C#
Não quero ser só apenas o teu servo
          Eb                      C#
Quero atrair teu olhar de amor Senhor
           Eb                      C#
Eu venho a ti como um filho que te ama
            Eb
Tudo que eu quero é estar perto de ti

Fm         Fm/Eb    C#         Eb
  Nos teus braços eu quero descansar
Fm     Fm/Eb  C#         EbFm
  Correndo irei pra te abraçar meu Pai

             Fm/Eb         C#
Tu és a minha herança meu Pai
            G#/C       Bbm
Razão da minha vida meu Pai
                Bbm/G#      Eb  
Tudo que eu preciso está em Ti

Fm                Fm/Eb      C#
  Eu quero estar na casa do Pai
            G#/C      Bbm
Comer em tua mesa meu Pai
            Bbm/G#     Eb
Tudo que eu sou é para Ti
            G#
Vivo só pra Ti


Intro 2x: G#  C#m6/G#

       Solo


E|------------------------------------------------------------------------------------------------------------|
A|--------------------------------------------------------------------------- ---15---------------------------|
D|--------------------------------------------------------------------13---13-15------------------------------|
G|-----------------------------------------15-13-15-15/17-13-15-13\12-----------------------------------------|
B|----------13—16b18--16b18--16--13--16—13--------------------------------------------------------------------|
E|----------13------------------------------------------------------------------------------------------------|



E|------------------------------------------------------------------------------------------------------------|
A|------------------------------------------------------------------------------------------------------------|
D|------------------------------------------------------------------------------------------------------------|
G|--13--15--15b17--13--15-13--15b17---------------------------------------------------------------------------|
B|-------------------------------------16-13------------------------------------------------------------------|
E|------------------------------------------------------------------------------------------------------------|



E|------------------------------------------------------------------------------------------------------------|
A|-----------------------------------------------15----13/15—11—11/13--15-8-----------------------------------|
D|---------------------------------15—13—15-15-13---13--------------------------------------------------------|
G|----------15---15-13-15-15----13----------------------------------------------------------------------------|
B|-16-16-13---13----------------------------------------------------------------------------------------------|
E|------------------------------------------------------------------------------------------------------------|
Texto Columnas
Alterar tom ½ tono ½ tono
sintonización acordes esconder tabs más »

Comentarios 12

  • Edilene Edilene: Publicado en 20/05/2014 10:24

    Mostra o riff do solo dessa música... please

  • Anderson Anderson: Publicado en 14/05/2014 17:10

    música linda demais!!!! No tom de G é fácil, mas queria msm no de G#.... hard demais!!rs Mas gostei!!!u.u

    • joseph_r joseph_r: Publicado en 02/06/2014 20:46

      Poem um capo na primeira casa que resolve teu problema =)

    • Anderson Anderson: Publicado en 08/07/2014 20:24

      vlw!!!

  • Patrick Patrick: Publicado en 30/04/2014 13:25

    Musica muito Linda !!

  • geanderson.lins geanderson.lins: Publicado en 13/04/2014 12:59

    no teclado se usa no modo strings ou piano?

    • canjica™ canjica™: Publicado en 19/08/2014 18:48

      se tiver bons sons de cordas no seu teclado usa os 2..... piano no começo e a partir do segundo refrão chama bom no string!!!

  • samir.silva.393 samir.silva.393: Publicado en 01/04/2014 21:12

    linda e
    muita boa de tocar

  • rivaldo.alvespessoa rivaldo.alvespessoa: Publicado en 20/02/2014 12:31

    que me passa a introduçao dessa musica?

  • rivaldo.alvespessoa rivaldo.alvespessoa: Publicado en 20/02/2014 12:09

    vou tocar essa musica domingo alguem sabe a introduçao no violao?

Exhibiendo 10 de 12 comentarios Mostrar más ver todo »
Composición: Aline Barros
Ese no és el compositor? Avisenos.
Contribución: Avimento Bíblico Correcciónes: mikael.cesar.7 , Valdeir e mais 12 »
  1. Sweet Child O' Mine - Guns N' Roses mantiene 2.934 exhibiciones
  2. Wonderwall - Oasis mantiene 2.223 exhibiciones
  3. All Of Me - John Legend mantiene 2.140 exhibiciones
  4. Nothing Else Matters - Metallica mantiene 1.651 exhibiciones
  5. When I Was Your Man - Bruno Mars mantiene 1.547 exhibiciones
  6. Stairway To Heaven - Led Zeppelin mantiene 1.493 exhibiciones
  7. More Than Words - Extreme mantiene 1.416 exhibiciones
  8. Hey Jude - The Beatles mantiene 1.353 exhibiciones
  9. The Scientist - Coldplay mantiene 1.332 exhibiciones
  10. I'm Yours - Jason Mraz mantiene 1.213 exhibiciones
  1. The Beatles- mantiene 21.691 exhibiciones
  2. Guns N' Roses- mantiene 7.118 exhibiciones
  3. Metallica- mantiene 6.519 exhibiciones
  4. Red Hot Chili Peppers- mantiene 5.015 exhibiciones
  5. Coldplay- mantiene 4.984 exhibiciones
  6. Bruno Mars- mantiene 4.919 exhibiciones
  7. Nirvana- mantiene 4.759 exhibiciones
  8. Oasis- mantiene 4.555 exhibiciones
  9. Soda Stereo- mantiene 4.486 exhibiciones
  10. One Direction- mantiene 4.052 exhibiciones
Exhibir acordes »

Acordes y tabs

Aprenda

Studio Sol

©1996 - 2014 Cifra Club · el primero, mayor y más accedido del Brasil · 339 mil músicas · 6.3 millones de personas registradas

publicidad
cerrar