Doth I Protest Too Much

Alanis Morissette

 Alanis Morissette
Tono: D
		
Introdução


       D                  C               C
E|---------2---0--------------3---------------0----
B|-----3---------3--------1------1--------1------1-
G|---2---2--------------0---0-----------0---0------
D|-0-----------------------------------------------
A|-------------------3--------------3--------------
E|------------------------------------------------



       D
E|---------2------0--------------------------------
B|-----3-------3----3------------------------------
G|---2---2-----------------------------------------
D|-0-----------------------------------------------
A|-------------------------------------------------
E|------------------------------------------------



Verso: toque a introdução ou se preferir, os acordes...

D                C                     C       
I'm not threatened, by every pair of legs you watch
   D
go by 

D                         C              C  
I don't cringe when you stare at women, it's just a
            D 
thing called guy 

Tudo igual nos versos que seguem:

I don't notice your sideways glances, or where your loyalty lies 
I'm secure and out of me it's hard to get a rise 

Chorus 
Bm               C 
I'm not jealous, I don't get moved by much 
Bm               C 
I'm not enraged, not insecure as such 
Bm               C 
Not going insane, rational, stays in touch 
Em        D/F#      G 
Doth I Protest Too Much 


I'm not tortured by how oft your busy, cuz I've got things to do 
I'm not disappointed about how you don't miss you me, cuz I don't need you to 

Chorus:
I'm not needy 
I don't get clingy much 
I'm not scared 
I'm not afraid as such 
I'm not dependent 
Rock solid stays in touch 
Doth I protest too much? 


Bridge 
A                   F    Em 
So much energy to prove to you 
A            F       Em 
Who I can't possibly be 
A                 F           Em 
So much energy to prove to you 
A 
I'm not who you hate for me to be 



I'm not saddened 
And I don't miss you 
Cause I have moved on too 
I'm not concerned about your new lover 
Cause I have a new lover too 

I'm not depressed 
I don't get down that much 
I'm not despondent 
I am not dark as such 
I'm never sad 
Keep chin up stays in touch 
Doth I protest too much? 

I'm not jealous 
I don't get moved my much 
I'm not enraged 
Not insecure as such 
Not going insane 
Rational stays in touch 
And Doth I protest too much?
86 exhibiciónes

Comentarios 0

Composición: Alanis Morissette / Maracai / Mark Gordon
Ese no és el compositor? Avisenos.
Contribución: Raphs Correcciónes: flavinha »
Consigo tocarSin embargo, para tocar esta canción. ¡Sé el primero!
    Aún no puedo reproducir
    Exhibir acordes »
    publicidad
    cerrar