R.I.P. (Rock In Peace)

AC/DC

 AC/DC
Tono: E
		

E------------------|
B------------------|
G---4-4-4-4-4-4----|
D---4-4-4-4-4-4----|
A---2-2-2-2-2-2----|
E------------------|



E---------------------------------------|
B---------------------------------------|
G---------------------------------------|
D---------------------------------------|
A---2-2-4-2--2-2-4-2--2-2-4-2--2-2-4-2--|
E---0-0-0-0--0-0-0-0--0-0-0-0--0-0-0-0--|



E---------------------------------------|
B---------------------------------------|
G---------------------------------------|
D---2-2-4-2--2-2-4-2--2-2-4-2--2-2-4-2--|
A---0-0-0-0--0-0-0-0--0-0-0-0--0-0-0-0--|
E---------------------------------------|



E---------------------------------------|
B---------------------------------------|
G---------------------------------------|
D---------------------------------------|
A---2-2-4-2--2-2-4-2--2-2-4-2--2-2-4-2--|
E---0-0-0-0--0-0-0-0--0-0-0-0--0-0-0-0--|



E----------------------------------------------|
B----------------------------------------------|
G----------------------------------------------|
D--4-4-4-4-4-4-4-4-4--2-2-2-2-2-2-2---2-5-4-3--|
A--2-2-2-2-2-2-2-2-2--0-0-0-0-0-0-0---2-5-4-3--|
E-------------------------------------0-3-2-1--|
98 exhibiciónes

Comentarios 1

  • guglielmo guglielmo: Publicado en 23/12/2011 14:25

    Poe completo ai plis. quero o solo

Composición: Angus Young/ Malcolm Young/ Bon Scott
Ese no és el compositor? Avisenos.
Exhibir acordes »
publicidad
cerrar