Feliz Pra Cachorro

5 à Seco

 5 à Seco Compositor: Pedro Viáfora / Celso Viáfora
Tono: C
		

E|--------------------------------------------|
B|--------------------------------------------|
G|--------------------3-----------------------|  2x
D|-------0h2p0--------2----------0h2p0--------|
A|--0h2p0------0------2----0h2p0-------0------|
E|---------------0-0--0------------------0-0--|



Em7
Pensa num cara que anda feliz
      Am7   A4(7) Am7 Em/A
Pra cachorro
Em7                   Em6
Mas pensa assim num cachorro
             G4(6)
Pra lá de feliz
A4(7)        Am7
Desde que te vi, que o chão não
    C9                       Bb6
Tem fundo, que o céu não tem forro
            E5-        riff 1
Cantarolo e morro de rir

riff 1


E|------------------------------------------------------|
B|-----3---------2---------3----------------------------|
G|-------0---------0---------0--------------------------|
D|---------2---------2---------2------------0h2p0-------|
A|------------------------------------0h2p0-------0-----|
E|---0---------0---------0---------0--------------------|


Em7                Em6
Todo feliz como um gol numa
       Am7   A4(7) Am7 Em/A
Copa do mundo
Em7               Em6
No fim do segundo tempo da
       G4(6)
Prorrogação
A4(7)       Am7             C9
Desde que te vi é farra pra tudo
            Bb6
Tem funk no morro do fundo do
E|5-       Em7 Em6 Em7 Em6
Meu coração

Refrão:
Em7(9)         Em5+             C
Tão raro de se ver, param pra dizer
        B7             Em7
Para eu ser feliz para lá
  Em7(9)          Em7
Peraí, o que é que há?
     Em7(9)              Am
Quero ver quem vai me impedir
     C         B7         Em7
De sorrir do Pari até o Pará
(2x)

riff 1

Em7
Pensa num cara que anda
            Am7   A4(7) Am7 Em/A
Contente pra burro
Em7                   Em6
Mas pensa um burro contente que
          G4(6)
Nem um sagui
A4(7)        Am7
Desde que te vi, parei de dar
C9                Bb6
Murros em ponta de faca
                E5-           riff1
Deu caca, eu dou urros de rir

Em7                Em6
Todo contente que nem são os
           Am7   A4(7) Am7 Em/A
Gols de chaleira
Em7              Em6
A zaga inteira batida e o goleiro
    G4(6)
No chão
A4(7)        Am7               C9
Desde que te vi, não tenho enjoeira,
            Bb6
Nem segunda-feira ou canseira no
E|5-         Em7 Em6 Em7 Em6
Meu coração

Refrão 2x

Em7 Em6 Em7 Em6
97 exhibiciónes

Comentarios 3

  • André André: Publicado en 13/12/2013 22:44

    falta um monte de cifra

  • Danyel Danyel: Publicado en 20/04/2013 20:45

    Ei, na passagem de C9 e Bb6, na verdade é G e uma variação de C9.

  • Danyel Danyel: Publicado en 20/04/2013 20:12

    Ei, na passagem de C9 e Bb6, na verdade é G e uma variação de C9

Composición: Pedro Viáfora e Celso Viáfora
Ese no és el compositor? Avisenos.
Contribución: elionilson Correcciónes: lucass007 e mais 1 »
Exhibir acordes »
publicidad
cerrar